  0
SECTION
  2
HEADER
  9
$ACADVER
  1
AC1015
  9
$ACADMAINTVER
 70
     6
  9
$DWGCODEPAGE
  3
ANSI_1254
  9
$INSBASE
 10
0.0
 20
0.0
 30
0.0
  9
$EXTMIN
 10
0.0
 20
0.0
 30
0.0
  9
$EXTMAX
 10
279.4
 20
215.9
 30
0.0
  9
$LIMMIN
 10
0.0
 20
0.0
  9
$LIMMAX
 10
279.4
 20
215.9
  9
$ORTHOMODE
 70
     0
  9
$REGENMODE
 70
     1
  9
$FILLMODE
 70
     1
  9
$QTEXTMODE
 70
     0
  9
$MIRRTEXT
 70
     1
  9
$LTSCALE
 40
1.0
  9
$ATTMODE
 70
     1
  9
$TEXTSIZE
 40
3.5
  9
$TRACEWID
 40
1.0
  9
$TEXTSTYLE
  7
Standard
  9
$CLAYER
  8
0
  9
$CELTYPE
  6
ByLayer
  9
$CECOLOR
 62
   256
  9
$CELTSCALE
 40
1.0
  9
$DISPSILH
 70
     0
  9
$DIMSCALE
 40
1.0
  9
$DIMASZ
 40
3.5
  9
$DIMEXO
 40
1.0
  9
$DIMDLI
 40
3.75
  9
$DIMRND
 40
0.0
  9
$DIMDLE
 40
0.0
  9
$DIMEXE
 40
1.0
  9
$DIMTP
 40
0.0
  9
$DIMTM
 40
0.0
  9
$DIMTXT
 40
3.5
  9
$DIMCEN
 40
2.5
  9
$DIMTSZ
 40
0.0
  9
$DIMTOL
 70
     0
  9
$DIMLIM
 70
     0
  9
$DIMTIH
 70
     1
  9
$DIMTOH
 70
     1
  9
$DIMSE1
 70
     0
  9
$DIMSE2
 70
     0
  9
$DIMTAD
 70
     1
  9
$DIMZIN
 70
     0
  9
$DIMBLK
  1

  9
$DIMASO
 70
     1
  9
$DIMSHO
 70
     1
  9
$DIMPOST
  1

  9
$DIMAPOST
  1

  9
$DIMALT
 70
     0
  9
$DIMALTD
 70
     3
  9
$DIMALTF
 40
0.0393700787
  9
$DIMLFAC
 40
1.0
  9
$DIMTOFL
 70
     1
  9
$DIMTVP
 40
0.0
  9
$DIMTIX
 70
     0
  9
$DIMSOXD
 70
     0
  9
$DIMSAH
 70
     0
  9
$DIMBLK1
  1

  9
$DIMBLK2
  1

  9
$DIMSTYLE
  2
ISO-25
  9
$DIMCLRD
 70
     0
  9
$DIMCLRE
 70
     0
  9
$DIMCLRT
 70
     0
  9
$DIMTFAC
 40
1.0
  9
$DIMGAP
 40
1.524
  9
$DIMJUST
 70
     0
  9
$DIMSD1
 70
     0
  9
$DIMSD2
 70
     0
  9
$DIMTOLJ
 70
     0
  9
$DIMTZIN
 70
     0
  9
$DIMALTZ
 70
     0
  9
$DIMALTTZ
 70
     0
  9
$DIMUPT
 70
     0
  9
$DIMDEC
 70
     2
  9
$DIMTDEC
 70
     2
  9
$DIMALTU
 70
     2
  9
$DIMALTTD
 70
     3
  9
$DIMTXSTY
  7
Standard
  9
$DIMAUNIT
 70
     0
  9
$DIMADEC
 70
     2
  9
$DIMALTRND
 40
0.0
  9
$DIMAZIN
 70
     0
  9
$DIMDSEP
 70
    44
  9
$DIMATFIT
 70
     3
  9
$DIMFRAC
 70
     0
  9
$DIMLDRBLK
  1

  9
$DIMLUNIT
 70
     2
  9
$DIMLWD
 70
    -2
  9
$DIMLWE
 70
    -2
  9
$DIMTMOVE
 70
     0
  9
$LUNITS
 70
     2
  9
$LUPREC
 70
     2
  9
$SKETCHINC
 40
1.0
  9
$FILLETRAD
 40
10.0
  9
$AUNITS
 70
     0
  9
$AUPREC
 70
     2
  9
$MENU
  1
.
  9
$ELEVATION
 40
0.0
  9
$PELEVATION
 40
0.0
  9
$THICKNESS
 40
0.0
  9
$LIMCHECK
 70
     0
  9
$CHAMFERA
 40
0.0
  9
$CHAMFERB
 40
0.0
  9
$CHAMFERC
 40
0.0
  9
$CHAMFERD
 40
0.0
  9
$SKPOLY
 70
     0
  9
$TDCREATE
 40
2459935.699369294
  9
$TDUCREATE
 40
2459935.574369294
  9
$TDUPDATE
 40
2459935.699369479
  9
$TDUUPDATE
 40
2459935.574369479
  9
$TDINDWG
 40
0.0000000116
  9
$TDUSRTIMER
 40
0.0000000116
  9
$USRTIMER
 70
     1
  9
$ANGBASE
 50
0.0
  9
$ANGDIR
 70
     0
  9
$PDMODE
 70
     0
  9
$PDSIZE
 40
-1.0
  9
$PLINEWID
 40
0.0
  9
$SPLFRAME
 70
     0
  9
$SPLINETYPE
 70
     6
  9
$SPLINESEGS
 70
     8
  9
$HANDSEED
  5
ED
  9
$SURFTAB1
 70
     6
  9
$SURFTAB2
 70
     6
  9
$SURFTYPE
 70
     6
  9
$SURFU
 70
     6
  9
$SURFV
 70
     6
  9
$UCSBASE
  2

  9
$UCSNAME
  2

  9
$UCSORG
 10
0.0
 20
0.0
 30
0.0
  9
$UCSXDIR
 10
1.0
 20
0.0
 30
0.0
  9
$UCSYDIR
 10
0.0
 20
1.0
 30
0.0
  9
$UCSORTHOREF
  2

  9
$UCSORTHOVIEW
 70
     0
  9
$UCSORGTOP
 10
0.0
 20
0.0
 30
0.0
  9
$UCSORGBOTTOM
 10
0.0
 20
0.0
 30
0.0
  9
$UCSORGLEFT
 10
0.0
 20
0.0
 30
0.0
  9
$UCSORGRIGHT
 10
0.0
 20
0.0
 30
0.0
  9
$UCSORGFRONT
 10
0.0
 20
0.0
 30
0.0
  9
$UCSORGBACK
 10
0.0
 20
0.0
 30
0.0
  9
$PUCSBASE
  2

  9
$PUCSNAME
  2

  9
$PUCSORG
 10
0.0
 20
0.0
 30
0.0
  9
$PUCSXDIR
 10
1.0
 20
0.0
 30
0.0
  9
$PUCSYDIR
 10
0.0
 20
1.0
 30
0.0
  9
$PUCSORTHOREF
  2

  9
$PUCSORTHOVIEW
 70
     0
  9
$PUCSORGTOP
 10
0.0
 20
0.0
 30
0.0
  9
$PUCSORGBOTTOM
 10
0.0
 20
0.0
 30
0.0
  9
$PUCSORGLEFT
 10
0.0
 20
0.0
 30
0.0
  9
$PUCSORGRIGHT
 10
0.0
 20
0.0
 30
0.0
  9
$PUCSORGFRONT
 10
0.0
 20
0.0
 30
0.0
  9
$PUCSORGBACK
 10
0.0
 20
0.0
 30
0.0
  9
$USERI1
 70
     0
  9
$USERI2
 70
     0
  9
$USERI3
 70
     0
  9
$USERI4
 70
     0
  9
$USERI5
 70
     0
  9
$USERR1
 40
0.0
  9
$USERR2
 40
0.0
  9
$USERR3
 40
0.0
  9
$USERR4
 40
0.0
  9
$USERR5
 40
0.0
  9
$WORLDVIEW
 70
     1
  9
$SHADEDGE
 70
     3
  9
$SHADEDIF
 70
    70
  9
$TILEMODE
 70
     1
  9
$MAXACTVP
 70
    64
  9
$PINSBASE
 10
0.0
 20
0.0
 30
0.0
  9
$PLIMCHECK
 70
     0
  9
$PEXTMIN
 10
1.0000000000E+20
 20
1.0000000000E+20
 30
1.0000000000E+20
  9
$PEXTMAX
 10
-1.0000000000E+20
 20
-1.0000000000E+20
 30
-1.0000000000E+20
  9
$PLIMMIN
 10
0.0
 20
0.0
  9
$PLIMMAX
 10
420.0
 20
297.0
  9
$UNITMODE
 70
     0
  9
$VISRETAIN
 70
     1
  9
$PLINEGEN
 70
     0
  9
$PSLTSCALE
 70
     1
  9
$TREEDEPTH
 70
  3020
  9
$CMLSTYLE
  2
Standard
  9
$CMLJUST
 70
     0
  9
$CMLSCALE
 40
20.0
  9
$PROXYGRAPHICS
 70
     1
  9
$MEASUREMENT
 70
     1
  9
$CELWEIGHT
370
    -1
  9
$ENDCAPS
280
     0
  9
$JOINSTYLE
280
     0
  9
$LWDISPLAY
290
     1
  9
$INSUNITS
 70
     4
  9
$HYPERLINKBASE
  1

  9
$STYLESHEET
  1

  9
$XEDIT
290
     1
  9
$CEPSNTYPE
380
     0
  9
$PSTYLEMODE
290
     1
  9
$FINGERPRINTGUID
  2
{161715dd-dee7-4a1f-ac48-74fd9646bde5}
  9
$VERSIONGUID
  2
{FAEB1C32-E019-11D5-929B-00C0DF256EC4}
  9
$EXTNAMES
290
     1
  9
$PSVPSCALE
 40
0.0
  9
$OLESTARTUP
290
     0
  0
ENDSEC
  0
SECTION
  2
CLASSES
  0
CLASS
  1
ACDBDICTIONARYWDFLT
  2
AcDbDictionaryWithDefault
  3
ObjectDBX Classes
 90
        0
280
     0
281
     0
  0
CLASS
  1
VISUALSTYLE
  2
AcDbVisualStyle
  3
ObjectDBX Classes
 90
     4095
280
     0
281
     0
  0
CLASS
  1
MATERIAL
  2
AcDbMaterial
  3
ObjectDBX Classes
 90
     1153
280
     0
281
     0
  0
CLASS
  1
SCALE
  2
AcDbScale
  3
ObjectDBX Classes
 90
     1153
280
     0
281
     0
  0
CLASS
  1
TABLESTYLE
  2
AcDbTableStyle
  3
ObjectDBX Classes
 90
     4095
280
     0
281
     0
  0
CLASS
  1
MLEADERSTYLE
  2
AcDbMLeaderStyle
  3
ACDB_MLEADERSTYLE_CLASS
 90
     4095
280
     0
281
     0
  0
CLASS
  1
SUN
  2
AcDbSun
  3
SCENEOE
 90
     1153
280
     0
281
     0
  0
CLASS
  1
ACDBPLACEHOLDER
  2
AcDbPlaceHolder
  3
ObjectDBX Classes
 90
        0
280
     0
281
     0
  0
CLASS
  1
LAYOUT
  2
AcDbLayout
  3
ObjectDBX Classes
 90
        0
280
     0
281
     0
  0
ENDSEC
  0
SECTION
  2
TABLES
  0
TABLE
  2
VPORT
  5
8
330
0
100
AcDbSymbolTable
 70
     1
  0
VPORT
  5
29
330
8
100
AcDbSymbolTableRecord
100
AcDbViewportTableRecord
  2
*Active
 70
     0
 10
0.0
 20
0.0
 11
1.0
 21
1.0
 12
139.7
 22
107.95
 13
0.0
 23
0.0
 14
10.0
 24
10.0
 15
10.0
 25
10.0
 16
0.0
 26
0.0
 36
1.0
 17
0.0
 27
0.0
 37
0.0
 40
215.9
 41
1.2941176471
 42
50.0
 43
0.0
 44
0.0
 50
0.0
 51
0.0
 71
     0
 72
  2000
 73
     1
 74
     3
 75
     0
 76
     0
 77
     0
 78
     0
281
     0
 65
     1
110
0.0
120
0.0
130
0.0
111
1.0
121
0.0
131
0.0
112
0.0
122
1.0
132
0.0
 79
     0
146
0.0
  0
ENDTAB
  0
TABLE
  2
LTYPE
  5
5
330
0
100
AcDbSymbolTable
 70
     6
  0
LTYPE
  5
14
330
5
100
AcDbSymbolTableRecord
100
AcDbLinetypeTableRecord
  2
ByBlock
 70
     0
  3

 72
    65
 73
     0
 40
0.0
  0
LTYPE
  5
15
330
5
100
AcDbSymbolTableRecord
100
AcDbLinetypeTableRecord
  2
ByLayer
 70
     0
  3

 72
    65
 73
     0
 40
0.0
  0
LTYPE
  5
16
330
5
100
AcDbSymbolTableRecord
100
AcDbLinetypeTableRecord
  2
Continuous
 70
     0
  3
Solid line
 72
    65
 73
     0
 40
0.0
  0
LTYPE
  5
6E
330
5
100
AcDbSymbolTableRecord
100
AcDbLinetypeTableRecord
  2
HIDDEN
 70
     0
  3
Hidden __ __ __ __ __ __ __ __ __ __ __ __ __ __
 72
    65
 73
     2
 40
1.905
 49
1.27
 74
     0
 49
-0.635
 74
     0
  0
LTYPE
  5
6F
330
5
100
AcDbSymbolTableRecord
100
AcDbLinetypeTableRecord
  2
PHANTOM
 70
     0
  3
Phantom ______  __  __  ______  __  __  ______
 72
    65
 73
     6
 40
12.7
 49
6.35
 74
     0
 49
-1.27
 74
     0
 49
1.27
 74
     0
 49
-1.27
 74
     0
 49
1.27
 74
     0
 49
-1.27
 74
     0
  0
LTYPE
  5
70
330
5
100
AcDbSymbolTableRecord
100
AcDbLinetypeTableRecord
  2
CENTER
 70
     0
  3
Center ____ _ ____ _ ____ _ ____ _ ____ _ ____
 72
    65
 73
     4
 40
10.16
 49
6.35
 74
     0
 49
-1.27
 74
     0
 49
1.27
 74
     0
 49
-1.27
 74
     0
  0
LTYPE
  5
71
330
5
100
AcDbSymbolTableRecord
100
AcDbLinetypeTableRecord
  2
CENTERX2
 70
     0
  3
Center (2x) ________  __  ________  __  _____
 72
    65
 73
     4
 40
20.32
 49
12.7
 74
     0
 49
-2.54
 74
     0
 49
2.54
 74
     0
 49
-2.54
 74
     0
  0
LTYPE
  5
72
330
5
100
AcDbSymbolTableRecord
100
AcDbLinetypeTableRecord
  2
DOT2
 70
     0
  3
Dot (.5x) ........................................
 72
    65
 73
     2
 40
0.635
 49
0.0
 74
     0
 49
-0.635
 74
     0
  0
ENDTAB
  0
TABLE
  2
LAYER
  5
2
330
0
100
AcDbSymbolTable
 70
    17
  0
LAYER
  5
10
330
2
100
AcDbSymbolTableRecord
100
AcDbLayerTableRecord
  2
0
 70
     0
 62
     7
  6
Continuous
370
    -3
390
F
  0
LAYER
  5
73
330
2
100
AcDbSymbolTableRecord
100
AcDbLayerTableRecord
  2
FORMAT
 70
     0
 62
     7
  6
Continuous
370
    -3
390
F
  0
LAYER
  5
74
330
2
100
AcDbSymbolTableRecord
100
AcDbLayerTableRecord
  2
YARDIMCI_GEOMETRI
 70
     0
 62
    -6
  6
Continuous
290
     0
370
    -3
390
F
  0
LAYER
  5
75
330
2
100
AcDbSymbolTableRecord
100
AcDbLayerTableRecord
  2
SAYFA_CERCEVESI
 70
     0
 62
     7
  6
Continuous
370
    25
390
F
  0
LAYER
  5
76
330
2
100
AcDbSymbolTableRecord
100
AcDbLayerTableRecord
  2
ANTET
 70
     0
 62
     7
  6
Continuous
370
    -3
390
F
  0
LAYER
  5
77
330
2
100
AcDbSymbolTableRecord
100
AcDbLayerTableRecord
  2
OLCU
 70
     0
 62
   150
  6
Continuous
370
    -3
390
F
  0
LAYER
  5
78
330
2
100
AcDbSymbolTableRecord
100
AcDbLayerTableRecord
  2
METIN
 70
     0
 62
    96
  6
Continuous
370
    -3
390
F
  0
LAYER
  5
79
330
2
100
AcDbSymbolTableRecord
100
AcDbLayerTableRecord
  2
BALON
 70
     0
 62
     5
  6
Continuous
370
    -3
390
F
  0
LAYER
  5
7A
330
2
100
AcDbSymbolTableRecord
100
AcDbLayerTableRecord
  2
VURGU
 70
     0
 62
     7
  6
Continuous
370
    -3
390
F
  0
LAYER
  5
7B
330
2
100
AcDbSymbolTableRecord
100
AcDbLayerTableRecord
  2
SILIK
 70
     0
 62
     7
  6
Continuous
370
    -3
390
F
  0
LAYER
  5
7C
330
2
100
AcDbSymbolTableRecord
100
AcDbLayerTableRecord
  2
MODEL
 70
     0
 62
     7
  6
Continuous
370
    -3
390
F
  0
LAYER
  5
7D
330
2
100
AcDbSymbolTableRecord
100
AcDbLayerTableRecord
  2
DETAYLANDıRMA
 70
     0
 62
   190
  6
Continuous
370
    -3
390
F
  0
LAYER
  5
7E
330
2
100
AcDbSymbolTableRecord
100
AcDbLayerTableRecord
  2
TOLERANS
 70
     0
 62
   230
  6
Continuous
370
    -3
390
F
  0
LAYER
  5
7F
330
2
100
AcDbSymbolTableRecord
100
AcDbLayerTableRecord
  2
MERKEZ_CIZGILERI
 70
     0
 62
    30
  6
Continuous
370
    -3
390
F
  0
LAYER
  5
80
330
2
100
AcDbSymbolTableRecord
100
AcDbLayerTableRecord
  2
KESIT-DETAY_CIZGILERI
 70
     0
 62
     7
  6
Continuous
370
    -3
390
F
  0
LAYER
  5
81
330
2
100
AcDbSymbolTableRecord
100
AcDbLayerTableRecord
  2
\U+041E\U+0421\U+0415\U+0412\U+042B\U+0415
 70
     0
 62
     7
  6
Continuous
370
    -3
390
F
  0
LAYER
  5
82
330
2
100
AcDbSymbolTableRecord
100
AcDbLayerTableRecord
  2
\U+0412\U+041E\U+0414\U+042F\U+041D\U+042B\U+0415_\U+0417\U+041D\U+0410\U+041A\U+0418
 70
     0
 62
    11
  6
Continuous
370
    -3
390
F
  0
ENDTAB
  0
TABLE
  2
STYLE
  5
3
330
0
100
AcDbSymbolTable
 70
     1
  0
STYLE
  5
11
330
3
100
AcDbSymbolTableRecord
100
AcDbTextStyleTableRecord
  2
Standard
 70
     0
 40
0.0
 41
1.0
 50
0.0
 71
     0
 42
3.5
  3
txt
  4

  0
ENDTAB
  0
TABLE
  2
VIEW
  5
6
330
0
100
AcDbSymbolTable
 70
     0
  0
ENDTAB
  0
TABLE
  2
UCS
  5
7
330
0
100
AcDbSymbolTable
 70
     0
  0
ENDTAB
  0
TABLE
  2
APPID
  5
9
330
0
100
AcDbSymbolTable
 70
     1
  0
APPID
  5
12
330
9
100
AcDbSymbolTableRecord
100
AcDbRegAppTableRecord
  2
ACAD
 70
     0
  0
ENDTAB
  0
TABLE
  2
DIMSTYLE
  5
A
330
0
100
AcDbSymbolTable
 70
     1
100
AcDbDimStyleTable
  0
DIMSTYLE
105
27
330
A
100
AcDbSymbolTableRecord
100
AcDbDimStyleTableRecord
  2
ISO-25
 70
     0
 41
2.5
 42
0.625
 43
3.75
 44
1.25
 73
     0
 74
     0
 77
     1
 78
     8
140
2.5
141
2.5
143
0.0393700787
147
0.625
171
     3
172
     1
178
     0
271
     2
272
     2
274
     3
278
    44
283
     0
284
     8
340
11
  0
ENDTAB
  0
TABLE
  2
BLOCK_RECORD
  5
1
330
0
100
AcDbSymbolTable
 70
     5
  0
BLOCK_RECORD
  5
1F
330
1
100
AcDbSymbolTableRecord
100
AcDbBlockTableRecord
  2
*Model_Space
340
22
  0
BLOCK_RECORD
  5
1B
330
1
100
AcDbSymbolTableRecord
100
AcDbBlockTableRecord
  2
*Paper_Space
340
1E
  0
BLOCK_RECORD
  5
23
330
1
100
AcDbSymbolTableRecord
100
AcDbBlockTableRecord
  2
*Paper_Space0
340
26
  0
BLOCK_RECORD
  5
97
330
1
100
AcDbSymbolTableRecord
100
AcDbBlockTableRecord
  2
SW_CENTERMARKSYMBOL_0
340
0
102
{BLKREFS
331
A2
102
}
  0
BLOCK_RECORD
  5
AC
330
1
100
AcDbSymbolTableRecord
100
AcDbBlockTableRecord
  2
SW_CENTERMARKSYMBOL_1
340
0
102
{BLKREFS
331
B7
102
}
  0
BLOCK_RECORD
  5
BF
330
1
100
AcDbSymbolTableRecord
100
AcDbBlockTableRecord
  2
SW_CENTERMARKSYMBOL_2
340
0
102
{BLKREFS
331
CA
102
}
  0
BLOCK_RECORD
  5
D2
330
1
100
AcDbSymbolTableRecord
100
AcDbBlockTableRecord
  2
SW_CENTERMARKSYMBOL_3
340
0
102
{BLKREFS
331
DD
102
}
  0
ENDTAB
  0
ENDSEC
  0
SECTION
  2
BLOCKS
  0
BLOCK
  5
20
330
1F
100
AcDbEntity
  8
0
100
AcDbBlockBegin
  2
*Model_Space
 70
     0
 10
0.0
 20
0.0
 30
0.0
  3
*Model_Space
  1

  0
ENDBLK
  5
21
330
1F
100
AcDbEntity
  8
0
100
AcDbBlockEnd
  0
BLOCK
  5
1C
330
1B
100
AcDbEntity
 67
     1
  8
0
100
AcDbBlockBegin
  2
*Paper_Space
 70
     0
 10
0.0
 20
0.0
 30
0.0
  3
*Paper_Space
  1

  0
ENDBLK
  5
1D
330
1B
100
AcDbEntity
 67
     1
  8
0
100
AcDbBlockEnd
  0
BLOCK
  5
24
330
23
100
AcDbEntity
  8
0
100
AcDbBlockBegin
  2
*Paper_Space0
 70
     0
 10
0.0
 20
0.0
 30
0.0
  3
*Paper_Space0
  1

  0
ENDBLK
  5
25
330
23
100
AcDbEntity
  8
0
100
AcDbBlockEnd
  0
BLOCK
  5
98
330
97
100
AcDbEntity
  8
0
100
AcDbBlockBegin
  2
SW_CENTERMARKSYMBOL_0
 70
     0
 10
0.0
 20
0.0
 30
0.0
  3
SW_CENTERMARKSYMBOL_0
  1

  0
LINE
  5
9A
330
97
100
AcDbEntity
  8
FORMAT
 62
     0
100
AcDbLine
 10
0.0
 20
0.0
 30
0.0
 11
0.0
 21
2.5
 31
0.0
  0
LINE
  5
9B
330
97
100
AcDbEntity
  8
FORMAT
 62
     0
100
AcDbLine
 10
0.0
 20
0.0
 30
0.0
 11
-2.5
 21
0.0
 31
0.0
  0
LINE
  5
9C
330
97
100
AcDbEntity
  8
FORMAT
 62
     0
100
AcDbLine
 10
0.0
 20
0.0
 30
0.0
 11
0.0
 21
-2.5
 31
0.0
  0
LINE
  5
9D
330
97
100
AcDbEntity
  8
FORMAT
 62
     0
100
AcDbLine
 10
0.0
 20
0.0
 30
0.0
 11
2.5
 21
0.0
 31
0.0
  0
LINE
  5
9E
330
97
100
AcDbEntity
  8
FORMAT
 62
     0
100
AcDbLine
 10
0.0
 20
5.0
 30
0.0
 11
0.0
 21
72.5
 31
0.0
  0
LINE
  5
9F
330
97
100
AcDbEntity
  8
FORMAT
 62
     0
100
AcDbLine
 10
-5.0
 20
0.0
 30
0.0
 11
-72.5
 21
0.0
 31
0.0
  0
LINE
  5
A0
330
97
100
AcDbEntity
  8
FORMAT
 62
     0
100
AcDbLine
 10
0.0
 20
-5.0
 30
0.0
 11
0.0
 21
-72.5
 31
0.0
  0
LINE
  5
A1
330
97
100
AcDbEntity
  8
FORMAT
 62
     0
100
AcDbLine
 10
5.0
 20
0.0
 30
0.0
 11
72.5
 21
0.0
 31
0.0
  0
ENDBLK
  5
99
330
97
100
AcDbEntity
  8
0
100
AcDbBlockEnd
  0
BLOCK
  5
AD
330
AC
100
AcDbEntity
  8
0
100
AcDbBlockBegin
  2
SW_CENTERMARKSYMBOL_1
 70
     0
 10
0.0
 20
0.0
 30
0.0
  3
SW_CENTERMARKSYMBOL_1
  1

  0
LINE
  5
AF
330
AC
100
AcDbEntity
  8
FORMAT
 62
     0
100
AcDbLine
 10
0.0
 20
0.0
 30
0.0
 11
0.0
 21
2.5
 31
0.0
  0
LINE
  5
B0
330
AC
100
AcDbEntity
  8
FORMAT
 62
     0
100
AcDbLine
 10
0.0
 20
0.0
 30
0.0
 11
-2.5
 21
0.0
 31
0.0
  0
LINE
  5
B1
330
AC
100
AcDbEntity
  8
FORMAT
 62
     0
100
AcDbLine
 10
0.0
 20
0.0
 30
0.0
 11
0.0
 21
-2.5
 31
0.0
  0
LINE
  5
B2
330
AC
100
AcDbEntity
  8
FORMAT
 62
     0
100
AcDbLine
 10
0.0
 20
0.0
 30
0.0
 11
2.5
 21
0.0
 31
0.0
  0
LINE
  5
B3
330
AC
100
AcDbEntity
  8
FORMAT
 62
     0
100
AcDbLine
 10
0.0
 20
5.0
 30
0.0
 11
0.0
 21
72.5
 31
0.0
  0
LINE
  5
B4
330
AC
100
AcDbEntity
  8
FORMAT
 62
     0
100
AcDbLine
 10
-5.0
 20
0.0
 30
0.0
 11
-72.5
 21
0.0
 31
0.0
  0
LINE
  5
B5
330
AC
100
AcDbEntity
  8
FORMAT
 62
     0
100
AcDbLine
 10
0.0
 20
-5.0
 30
0.0
 11
0.0
 21
-72.5
 31
0.0
  0
LINE
  5
B6
330
AC
100
AcDbEntity
  8
FORMAT
 62
     0
100
AcDbLine
 10
5.0
 20
0.0
 30
0.0
 11
72.5
 21
0.0
 31
0.0
  0
ENDBLK
  5
AE
330
AC
100
AcDbEntity
  8
0
100
AcDbBlockEnd
  0
BLOCK
  5
C0
330
BF
100
AcDbEntity
  8
0
100
AcDbBlockBegin
  2
SW_CENTERMARKSYMBOL_2
 70
     0
 10
0.0
 20
0.0
 30
0.0
  3
SW_CENTERMARKSYMBOL_2
  1

  0
LINE
  5
C2
330
BF
100
AcDbEntity
  8
FORMAT
 62
     0
100
AcDbLine
 10
0.0
 20
0.0
 30
0.0
 11
0.0
 21
2.5
 31
0.0
  0
LINE
  5
C3
330
BF
100
AcDbEntity
  8
FORMAT
 62
     0
100
AcDbLine
 10
0.0
 20
0.0
 30
0.0
 11
-2.5
 21
0.0
 31
0.0
  0
LINE
  5
C4
330
BF
100
AcDbEntity
  8
FORMAT
 62
     0
100
AcDbLine
 10
0.0
 20
0.0
 30
0.0
 11
0.0
 21
-2.5
 31
0.0
  0
LINE
  5
C5
330
BF
100
AcDbEntity
  8
FORMAT
 62
     0
100
AcDbLine
 10
0.0
 20
0.0
 30
0.0
 11
2.5
 21
0.0
 31
0.0
  0
LINE
  5
C6
330
BF
100
AcDbEntity
  8
FORMAT
 62
     0
100
AcDbLine
 10
0.0
 20
5.0
 30
0.0
 11
0.0
 21
72.5
 31
0.0
  0
LINE
  5
C7
330
BF
100
AcDbEntity
  8
FORMAT
 62
     0
100
AcDbLine
 10
-5.0
 20
0.0
 30
0.0
 11
-72.5
 21
0.0
 31
0.0
  0
LINE
  5
C8
330
BF
100
AcDbEntity
  8
FORMAT
 62
     0
100
AcDbLine
 10
0.0
 20
-5.0
 30
0.0
 11
0.0
 21
-72.5
 31
0.0
  0
LINE
  5
C9
330
BF
100
AcDbEntity
  8
FORMAT
 62
     0
100
AcDbLine
 10
5.0
 20
0.0
 30
0.0
 11
72.5
 21
0.0
 31
0.0
  0
ENDBLK
  5
C1
330
BF
100
AcDbEntity
  8
0
100
AcDbBlockEnd
  0
BLOCK
  5
D3
330
D2
100
AcDbEntity
  8
0
100
AcDbBlockBegin
  2
SW_CENTERMARKSYMBOL_3
 70
     0
 10
0.0
 20
0.0
 30
0.0
  3
SW_CENTERMARKSYMBOL_3
  1

  0
LINE
  5
D5
330
D2
100
AcDbEntity
  8
FORMAT
 62
     0
100
AcDbLine
 10
0.0
 20
0.0
 30
0.0
 11
0.0
 21
2.5
 31
0.0
  0
LINE
  5
D6
330
D2
100
AcDbEntity
  8
FORMAT
 62
     0
100
AcDbLine
 10
0.0
 20
0.0
 30
0.0
 11
-2.5
 21
0.0
 31
0.0
  0
LINE
  5
D7
330
D2
100
AcDbEntity
  8
FORMAT
 62
     0
100
AcDbLine
 10
0.0
 20
0.0
 30
0.0
 11
0.0
 21
-2.5
 31
0.0
  0
LINE
  5
D8
330
D2
100
AcDbEntity
  8
FORMAT
 62
     0
100
AcDbLine
 10
0.0
 20
0.0
 30
0.0
 11
2.5
 21
0.0
 31
0.0
  0
LINE
  5
D9
330
D2
100
AcDbEntity
  8
FORMAT
 62
     0
100
AcDbLine
 10
0.0
 20
5.0
 30
0.0
 11
0.0
 21
72.5
 31
0.0
  0
LINE
  5
DA
330
D2
100
AcDbEntity
  8
FORMAT
 62
     0
100
AcDbLine
 10
-5.0
 20
0.0
 30
0.0
 11
-72.5
 21
0.0
 31
0.0
  0
LINE
  5
DB
330
D2
100
AcDbEntity
  8
FORMAT
 62
     0
100
AcDbLine
 10
0.0
 20
-5.0
 30
0.0
 11
0.0
 21
-72.5
 31
0.0
  0
LINE
  5
DC
330
D2
100
AcDbEntity
  8
FORMAT
 62
     0
100
AcDbLine
 10
5.0
 20
0.0
 30
0.0
 11
72.5
 21
0.0
 31
0.0
  0
ENDBLK
  5
D4
330
D2
100
AcDbEntity
  8
0
100
AcDbBlockEnd
  0
ENDSEC
  0
SECTION
  2
ENTITIES
  0
LINE
  5
83
330
1F
100
AcDbEntity
  8
0
  6
Continuous
 62
     7
370
    25
100
AcDbLine
 10
24.9323471417
 20
98.182559704
 30
0.0
 11
24.9323471417
 21
-26.817440296
 31
0.0
  0
LINE
  5
84
330
1F
100
AcDbEntity
  8
0
  6
Continuous
 62
     7
370
    25
100
AcDbLine
 10
164.9323471417
 20
-26.817440296
 30
0.0
 11
164.9323471417
 21
98.182559704
 31
0.0
  0
ARC
  5
85
330
1F
100
AcDbEntity
  8
0
  6
Continuous
 62
     7
370
    25
100
AcDbCircle
 10
164.9323471417
 20
98.182559704
 30
0.0
 40
140.0000000000001
100
AcDbArc
 50
90.0
 51
180.0
  0
LINE
  5
86
330
1F
100
AcDbEntity
  8
0
  6
Continuous
 62
     7
370
    25
100
AcDbLine
 10
289.9323471417
 20
238.182559704
 30
0.0
 11
164.9323471417
 21
238.182559704
 31
0.0
  0
LINE
  5
87
330
1F
100
AcDbEntity
  8
0
  6
Continuous
 62
     7
370
    25
100
AcDbLine
 10
164.9323471417
 20
98.182559704
 30
0.0
 11
289.9323471417
 21
98.182559704
 31
0.0
  0
LINE
  5
88
330
1F
100
AcDbEntity
  8
0
  6
Continuous
 62
     7
370
    25
100
AcDbLine
 10
94.9323471417
 20
-26.817440296
 30
0.0
 11
164.9323471417
 21
-26.817440296
 31
0.0
  0
LINE
  5
89
330
1F
100
AcDbEntity
  8
0
  6
Continuous
 62
     7
370
    25
100
AcDbLine
 10
24.9323471417
 20
-26.817440296
 30
0.0
 11
94.9323471417
 21
-26.817440296
 31
0.0
  0
LINE
  5
8A
330
1F
100
AcDbEntity
  8
0
  6
Continuous
 62
     7
370
    25
100
AcDbLine
 10
289.9323471417
 20
168.182559704
 30
0.0
 11
289.9323471417
 21
98.182559704
 31
0.0
  0
LINE
  5
8B
330
1F
100
AcDbEntity
  8
0
  6
Continuous
 62
     7
370
    25
100
AcDbLine
 10
289.9323471417
 20
238.182559704
 30
0.0
 11
289.9323471417
 21
168.182559704
 31
0.0
  0
LINE
  5
8C
330
1F
100
AcDbEntity
  8
0
  6
Continuous
 62
     1
370
    25
100
AcDbLine
 10
24.9323471417
 20
98.182559704
 30
0.0
 11
164.9323471417
 21
98.182559704
 31
0.0
  0
LINE
  5
8D
330
1F
100
AcDbEntity
  8
0
  6
Continuous
 62
     1
370
    25
100
AcDbLine
 10
164.9323471417
 20
238.182559704
 30
0.0
 11
164.9323471417
 21
98.182559704
 31
0.0
  0
LINE
  5
8E
330
1F
100
AcDbEntity
  8
0
  6
Continuous
 62
     7
370
    25
100
AcDbLine
 10
-200.8444693832
 20
98.182559704
 30
0.0
 11
-200.8444693832
 21
-26.817440296
 31
0.0
  0
LINE
  5
8F
330
1F
100
AcDbEntity
  8
0
  6
Continuous
 62
     7
370
    25
100
AcDbLine
 10
-60.8444693832
 20
-26.817440296
 30
0.0
 11
-60.8444693832
 21
98.182559704
 31
0.0
  0
LINE
  5
90
330
1F
100
AcDbEntity
  8
0
  6
Continuous
 62
     7
370
    25
100
AcDbLine
 10
-200.8444693832
 20
168.182559704
 30
0.0
 11
-200.8444693832
 21
98.182559704
 31
0.0
  0
LINE
  5
91
330
1F
100
AcDbEntity
  8
0
  6
Continuous
 62
     7
370
    25
100
AcDbLine
 10
-60.8444693832
 20
98.182559704
 30
0.0
 11
-60.8444693832
 21
168.182559704
 31
0.0
  0
CIRCLE
  5
92
330
1F
100
AcDbEntity
  8
0
  6
Continuous
 62
     7
370
    25
100
AcDbCircle
 10
-130.8444693832
 20
168.182559704
 30
0.0
 40
70.00000000000003
  0
CIRCLE
  5
93
330
1F
100
AcDbEntity
  8
0
  6
Continuous
 62
     7
370
    25
100
AcDbCircle
 10
-130.8444693832
 20
168.182559704
 30
0.0
 40
57.30000000000001
  0
LINE
  5
94
330
1F
100
AcDbEntity
  8
0
  6
Continuous
 62
     7
370
    25
100
AcDbLine
 10
-200.8444693832
 20
-26.817440296
 30
0.0
 11
-60.8444693832
 21
-26.817440296
 31
0.0
  0
LINE
  5
95
330
1F
100
AcDbEntity
  8
0
  6
Continuous
 62
     1
370
    25
100
AcDbLine
 10
-130.8444693832
 20
98.182559704
 30
0.0
 11
-60.8444693832
 21
98.182559704
 31
0.0
  0
LINE
  5
96
330
1F
100
AcDbEntity
  8
0
  6
Continuous
 62
     1
370
    25
100
AcDbLine
 10
-200.8444693832
 20
98.182559704
 30
0.0
 11
-130.8444693832
 21
98.182559704
 31
0.0
  0
INSERT
  5
A2
330
1F
100
AcDbEntity
  8
FORMAT
 62
     7
100
AcDbBlockReference
  2
SW_CENTERMARKSYMBOL_0
 10
-130.8444693832
 20
168.182559704
 30
0.0
  0
LINE
  5
A3
330
1F
100
AcDbEntity
  8
0
  6
Continuous
 62
     7
370
    25
100
AcDbLine
 10
289.9323471417
 20
461.4557267831
 30
0.0
 11
164.9323471417
 21
461.4557267831
 31
0.0
  0
LINE
  5
A4
330
1F
100
AcDbEntity
  8
0
  6
Continuous
 62
     7
370
    25
100
AcDbLine
 10
164.9323471417
 20
321.4557267831
 30
0.0
 11
289.9323471417
 21
321.4557267831
 31
0.0
  0
LINE
  5
A5
330
1F
100
AcDbEntity
  8
0
  6
Continuous
 62
     7
370
    25
100
AcDbLine
 10
164.9323471417
 20
461.4557267831
 30
0.0
 11
94.9323471417
 21
461.4557267831
 31
0.0
  0
LINE
  5
A6
330
1F
100
AcDbEntity
  8
0
  6
Continuous
 62
     7
370
    25
100
AcDbLine
 10
94.9323471417
 20
321.4557267831
 30
0.0
 11
164.9323471417
 21
321.4557267831
 31
0.0
  0
CIRCLE
  5
A7
330
1F
100
AcDbEntity
  8
0
  6
Continuous
 62
     7
370
    25
100
AcDbCircle
 10
94.9323471417
 20
391.4557267831
 30
0.0
 40
57.30000000000001
  0
CIRCLE
  5
A8
330
1F
100
AcDbEntity
  8
0
  6
Continuous
 62
     7
370
    25
100
AcDbCircle
 10
94.9323471417
 20
391.4557267831
 30
0.0
 40
70.0
  0
LINE
  5
A9
330
1F
100
AcDbEntity
  8
0
  6
Continuous
 62
     7
370
    25
100
AcDbLine
 10
289.9323471417
 20
461.4557267831
 30
0.0
 11
289.9323471417
 21
321.4557267831
 31
0.0
  0
LINE
  5
AA
330
1F
100
AcDbEntity
  8
0
  6
Continuous
 62
     1
370
    25
100
AcDbLine
 10
164.9323471417
 20
391.4557267831
 30
0.0
 11
164.9323471417
 21
321.4557267831
 31
0.0
  0
LINE
  5
AB
330
1F
100
AcDbEntity
  8
0
  6
Continuous
 62
     1
370
    25
100
AcDbLine
 10
164.9323471417
 20
461.4557267831
 30
0.0
 11
164.9323471417
 21
391.4557267831
 31
0.0
  0
INSERT
  5
B7
330
1F
100
AcDbEntity
  8
FORMAT
 62
     7
100
AcDbBlockReference
  2
SW_CENTERMARKSYMBOL_1
 10
94.9323471417
 20
391.4557267831
 30
0.0
  0
LINE
  5
B8
330
1F
100
AcDbEntity
  8
0
  6
Continuous
 62
     7
370
    25
100
AcDbLine
 10
383.6309405543
 20
98.182559704
 30
0.0
 11
383.6309405543
 21
-26.817440296
 31
0.0
  0
LINE
  5
B9
330
1F
100
AcDbEntity
  8
0
  6
Continuous
 62
     7
370
    25
100
AcDbLine
 10
523.6309405543
 20
-26.817440296
 30
0.0
 11
523.6309405543
 21
98.182559704
 31
0.0
  0
LINE
  5
BA
330
1F
100
AcDbEntity
  8
0
  6
Continuous
 62
     7
370
    25
100
AcDbLine
 10
523.6309405543
 20
98.182559704
 30
0.0
 11
523.6309405543
 21
168.182559704
 31
0.0
  0
LINE
  5
BB
330
1F
100
AcDbEntity
  8
0
  6
Continuous
 62
     7
370
    25
100
AcDbLine
 10
383.6309405543
 20
168.182559704
 30
0.0
 11
383.6309405543
 21
98.182559704
 31
0.0
  0
LINE
  5
BC
330
1F
100
AcDbEntity
  8
0
  6
Continuous
 62
     7
370
    25
100
AcDbLine
 10
383.6309405543
 20
-26.817440296
 30
0.0
 11
523.6309405543
 21
-26.817440296
 31
0.0
  0
ARC
  5
BD
330
1F
100
AcDbEntity
  8
0
  6
Continuous
 62
     7
370
    25
100
AcDbCircle
 10
453.6309405543
 20
168.182559704
 30
0.0
 40
70.00000000000006
100
AcDbArc
 50
0.0
 51
180.0
  0
LINE
  5
BE
330
1F
100
AcDbEntity
  8
0
  6
Continuous
 62
     1
370
    25
100
AcDbLine
 10
383.6309405543
 20
98.182559704
 30
0.0
 11
523.6309405543
 21
98.182559704
 31
0.0
  0
INSERT
  5
CA
330
1F
100
AcDbEntity
  8
FORMAT
 62
     7
100
AcDbBlockReference
  2
SW_CENTERMARKSYMBOL_2
 10
453.6309405543
 20
168.182559704
 30
0.0
  0
LINE
  5
CB
330
1F
100
AcDbEntity
  8
0
  6
Continuous
 62
     7
370
    25
100
AcDbLine
 10
289.9323471417
 20
-147.3864698019
 30
0.0
 11
164.9323471417
 21
-147.3864698019
 31
0.0
  0
LINE
  5
CC
330
1F
100
AcDbEntity
  8
0
  6
Continuous
 62
     7
370
    25
100
AcDbLine
 10
164.9323471417
 20
-287.3864698019
 30
0.0
 11
289.9323471417
 21
-287.3864698019
 31
0.0
  0
LINE
  5
CD
330
1F
100
AcDbEntity
  8
0
  6
Continuous
 62
     7
370
    25
100
AcDbLine
 10
94.9323471417
 20
-287.3864698019
 30
0.0
 11
164.9323471417
 21
-287.3864698019
 31
0.0
  0
LINE
  5
CE
330
1F
100
AcDbEntity
  8
0
  6
Continuous
 62
     7
370
    25
100
AcDbLine
 10
164.9323471417
 20
-147.3864698019
 30
0.0
 11
94.9323471417
 21
-147.3864698019
 31
0.0
  0
LINE
  5
CF
330
1F
100
AcDbEntity
  8
0
  6
Continuous
 62
     7
370
    25
100
AcDbLine
 10
289.9323471417
 20
-147.3864698019
 30
0.0
 11
289.9323471417
 21
-287.3864698019
 31
0.0
  0
ARC
  5
D0
330
1F
100
AcDbEntity
  8
0
  6
Continuous
 62
     7
370
    25
100
AcDbCircle
 10
94.9323471417
 20
-217.3864698019
 30
0.0
 40
70.00000000000003
100
AcDbArc
 50
90.0
 51
270.0
  0
LINE
  5
D1
330
1F
100
AcDbEntity
  8
0
  6
Continuous
 62
     1
370
    25
100
AcDbLine
 10
164.9323471417
 20
-147.3864698019
 30
0.0
 11
164.9323471417
 21
-287.3864698019
 31
0.0
  0
INSERT
  5
DD
330
1F
100
AcDbEntity
  8
FORMAT
 62
     7
100
AcDbBlockReference
  2
SW_CENTERMARKSYMBOL_3
 10
94.9323471417
 20
-217.3864698019
 30
0.0
  0
LINE
  5
DE
330
1F
100
AcDbEntity
  8
0
  6
Continuous
 62
     7
370
    25
100
AcDbLine
 10
553.5412556181
 20
-59.1406721324
 30
0.0
 11
465.1529079698
 21
-110.1661791213
 31
0.0
  0
LINE
  5
DF
330
1F
100
AcDbEntity
  8
0
  6
Continuous
 62
     7
370
    25
100
AcDbLine
 10
535.1472192543
 20
-231.4130198546
 30
0.0
 11
623.5355669027
 21
-180.3875128657
 31
0.0
  0
LINE
  5
E0
330
1F
100
AcDbEntity
  8
0
  6
Continuous
 62
     7
370
    25
100
AcDbLine
 10
380.652588929
 20
-256.5217402337
 30
0.0
 11
380.652588929
 21
-358.5893417195
 31
0.0
  0
LINE
  5
E1
330
1F
100
AcDbEntity
  8
0
  6
Continuous
 62
     7
370
    25
100
AcDbLine
 10
520.652588929
 20
-358.5893417195
 30
0.0
 11
520.652588929
 21
-256.5217402337
 31
0.0
  0
SPLINE
  5
E2
330
1F
100
AcDbEntity
  8
0
  6
Continuous
 62
     7
370
    25
100
AcDbSpline
210
0.0
220
0.0
230
1.0
 70
     8
 71
     3
 72
    38
 73
    34
 74
     0
 42
0.00000001
 43
0.00000001
 40
0.0
 40
0.0
 40
0.0
 40
0.0
 40
0.0214512429670159
 40
0.0544218493396137
 40
0.0874761305504232
 40
0.1206922709234085
 40
0.1540077657514479
 40
0.1873571012341992
 40
0.2206900314333267
 40
0.2539746758189206
 40
0.2871906448416215
 40
0.3203281775219071
 40
0.3533866658938636
 40
0.3863729822229278
 40
0.4192998588677756
 40
0.4521844504175546
 40
0.4850471179419764
 40
0.5179104180581786
 40
0.5507978964737961
 40
0.5837262937159868
 40
0.6167201174255982
 40
0.649803155362255
 40
0.6829975803353268
 40
0.7163228669771219
 40
0.7497944495423539
 40
0.7834220750573778
 40
0.8172078566903923
 40
0.851144122942864
 40
0.8852112971982294
 40
0.9193762178491542
 40
0.9535801663658914
 40
0.9877512011156956
 40
1.0
 40
1.0
 40
1.0
 40
1.0
 10
465.1529079698249
 20
-110.1661791212899
 30
0.0
 10
464.1014307092599
 20
-110.7844454454061
 30
0.0
 10
461.4338306477396
 20
-112.3529884335467
 30
0.0
 10
457.2342917857864
 20
-115.0580173300983
 30
0.0
 10
452.5678440152229
 20
-118.3140810224924
 30
0.0
 10
447.9936627469344
 20
-121.7781736026101
 30
0.0
 10
443.5161890484723
 20
-125.4389894121344
 30
0.0
 10
439.1477963993684
 20
-129.2849068097599
 30
0.0
 10
434.898426718368
 20
-133.3027682288549
 30
0.0
 10
430.7759979178467
 20
-137.4806243353373
 30
0.0
 10
426.7866024142227
 20
-141.8074337557073
 30
0.0
 10
422.9351153354905
 20
-146.2730946993497
 30
0.0
 10
419.2254704769783
 20
-150.8684599633309
 30
0.0
 10
415.6609572885918
 20
-155.5853108061916
 30
0.0
 10
412.2444824743806
 20
-160.4162704114809
 30
0.0
 10
408.9787907885893
 20
-165.354698602758
 30
0.0
 10
405.8666427241416
 20
-170.3945805021587
 30
0.0
 10
402.91096607298
 20
-175.5303997075262
 30
0.0
 10
400.1151744330237
 20
-180.7566409143834
 30
0.0
 10
397.4829762367528
 20
-186.0680778669828
 30
0.0
 10
395.0184355530236
 20
-191.4597054455218
 30
0.0
 10
392.7258884819279
 20
-196.9270489815328
 30
0.0
 10
390.6102279938927
 20
-202.4656065144055
 30
0.0
 10
388.6769595172545
 20
-208.0706612146401
 30
0.0
 10
386.932241731318
 20
-213.7370444199103
 30
0.0
 10
385.382888684815
 20
-219.4588430117994
 30
0.0
 10
384.0363579218185
 20
-225.2290477978887
 30
0.0
 10
382.9005388128204
 20
-231.0391789323616
 30
0.0
 10
381.9839262649276
 20
-236.8788602517224
 30
0.0
 10
381.293950120225
 20
-242.7350260207958
 30
0.0
 10
380.841740120489
 20
-248.5911773333302
 30
0.0
 10
380.6683989585816
 20
-253.1867696822349
 30
0.0
 10
380.6558897367013
 20
-255.8254672541733
 30
0.0
 10
380.6525889290289
 20
-256.521740233735
 30
0.0
  0
SPLINE
  5
E3
330
1F
100
AcDbEntity
  8
0
  6
Continuous
 62
     7
370
    25
100
AcDbSpline
210
0.0
220
0.0
230
1.0
 70
     8
 71
     3
 72
    33
 73
    29
 74
     0
 42
0.00000001
 43
0.00000001
 40
0.0
 40
0.0
 40
0.0
 40
0.0
 40
0.0112876299630927
 40
0.05343026040622
 40
0.094171788377637
 40
0.1338985098396162
 40
0.1729575337167913
 40
0.2116493743627423
 40
0.2502220706704983
 40
0.2888671714105335
 40
0.3276934457611885
 40
0.3667724485113059
 40
0.4061460348449111
 40
0.4458095759366321
 40
0.4857214637163648
 40
0.5258144666042996
 40
0.5660043369916833
 40
0.6061879357081879
 40
0.6463059728202474
 40
0.686332699130427
 40
0.7262882916630459
 40
0.7662491598930941
 40
0.8063552601329916
 40
0.8467566179290642
 40
0.8876930916674264
 40
0.9294736432782142
 40
0.9724615587423228
 40
1.0
 40
1.0
 40
1.0
 40
1.0
 10
520.6522463002188
 20
-256.567538991725
 30
0.0
 10
520.65213569826
 20
-256.5744568092157
 30
0.0
 10
520.6516121613013
 20
-256.6072024600908
 30
0.0
 10
520.6591271928094
 20
-256.4390856454137
 30
0.0
 10
520.6998790033385
 20
-256.0558430928417
 30
0.0
 10
520.7897469356616
 20
-255.4441332562856
 30
0.0
 10
520.9429741200987
 20
-254.6387246564551
 30
0.0
 10
521.1723727323171
 20
-253.6486814214651
 30
0.0
 10
521.4884594678624
 20
-252.4920092576862
 30
0.0
 10
521.8992435879304
 20
-251.187606554377
 30
0.0
 10
522.4097256826486
 20
-249.7578883823323
 30
0.0
 10
523.0215482986944
 20
-248.2279341426913
 30
0.0
 10
523.7328491941321
 20
-246.6249933094591
 30
0.0
 10
524.5379869522254
 20
-244.9781804153023
 30
0.0
 10
525.4272756633138
 20
-243.3181222042426
 30
0.0
 10
526.3869853524214
 20
-241.6761154130359
 30
0.0
 10
527.399415314555
 20
-240.083322892058
 30
0.0
 10
528.443579361329
 20
-238.5691878590075
 30
0.0
 10
529.4960160119497
 20
-237.1601728443713
 30
0.0
 10
530.5318323928925
 20
-235.8785974432042
 30
0.0
 10
531.5253483064696
 20
-234.7422870185719
 30
0.0
 10
532.4507705186772
 20
-233.7642594501962
 30
0.0
 10
533.282695103517
 20
-232.9528610775338
 30
0.0
 10
533.9957819720121
 20
-232.3121263448654
 30
0.0
 10
534.5695496295053
 20
-231.8392011943423
 30
0.0
 10
534.9721719022398
 20
-231.5350909416375
 30
0.0
 10
535.1902314240986
 20
-231.3879009389613
 30
0.0
 10
535.1840613456194
 20
-231.3920184393938
 30
0.0
 10
535.1816521137853
 20
-231.3936262006487
 30
0.0
  0
LWPOLYLINE
  5
E4
330
1F
100
AcDbEntity
  8
0
  6
Continuous
 62
     7
370
    25
100
AcDbPolyline
 90
      101
 70
   128
 43
0.0
 10
539.0409365773
 20
-91.1898085852
 10
539.138608537
 20
-94.835164933
 10
539.4312389494
 20
-98.578904369
 10
539.917672936
 20
-102.4062520639
 10
540.595990764
 20
-106.3021032249
 10
541.4635154229
 20
-110.2510827075
 10
542.5168231892
 20
-114.2376056936
 10
543.7517571384
 20
-118.2459391983
 10
545.1634435503
 20
-122.2602641605
 10
546.7463111437
 20
-126.2647378735
 10
548.4941130632
 20
-130.2435565092
 10
550.3999515331
 20
-134.1810174879
 10
552.4563050799
 20
-138.0615814503
 10
554.6550582153
 20
-141.869933583
 10
556.9875334654
 20
-145.5910440602
 10
559.444525616
 20
-149.2102273588
 10
562.0163380414
 20
-152.7132002158
 10
564.6928209731
 20
-156.0861379976
 10
567.4634115556
 20
-159.3157292598
 10
570.3171755337
 20
-162.3892282811
 10
573.2428504047
 20
-165.2945053651
 10
576.2288898665
 20
-168.0200947104
 10
579.2635093856
 20
-170.555239661
 10
582.3347327051
 20
-172.889935158
 10
585.4304391097
 20
-175.0149672249
 10
588.5384112604
 20
-176.921949331
 10
591.6463834111
 20
-178.6033554892
 10
594.7420898157
 20
-180.0525499574
 10
597.8133131352
 20
-181.2638134272
 10
600.8479326543
 20
-182.232365595
 10
603.8339721161
 20
-182.954384028
 10
606.7596469871
 20
-183.4270192492
 10
609.6134109652
 20
-183.6484059834
 10
612.3840015477
 20
-183.6176705182
 10
615.0604844794
 20
-183.3349341525
 10
617.6322969048
 20
-182.8013127175
 10
620.0892890554
 20
-182.0189121733
 10
622.4217643055
 20
-180.9908202974
 10
624.6205174409
 20
-179.7210944986
 10
626.6768709877
 20
-178.2147458048
 10
628.5827094576
 20
-176.4777190859
 10
630.3305113771
 20
-174.5168695928
 10
631.9133789705
 20
-172.3399359027
 10
633.3250653824
 20
-169.9555093784
 10
634.5599993316
 20
-167.3730002619
 10
635.6133070979
 20
-164.6026005368
 10
636.4808317568
 20
-161.6552437054
 10
637.1591495848
 20
-158.5425616383
 10
637.6455835714
 20
-155.2768386698
 10
637.9382139838
 20
-151.8709631163
 10
638.0358859435
 20
-148.3383764128
 10
637.9382139838
 20
-144.693020065
 10
637.6455835714
 20
-140.9492806291
 10
637.1591495848
 20
-137.1219329342
 10
636.4808317568
 20
-133.2260817731
 10
635.6133070979
 20
-129.2771022906
 10
634.5599993316
 20
-125.2905793045
 10
633.3250653824
 20
-121.2822457998
 10
631.9133789705
 20
-117.2679208375
 10
630.3305113771
 20
-113.2634471245
 10
628.5827094576
 20
-109.2846284889
 10
626.6768709877
 20
-105.3471675101
 10
624.6205174409
 20
-101.4666035478
 10
622.4217643055
 20
-97.658251415
 10
620.0892890554
 20
-93.9371409378
 10
617.6322969048
 20
-90.3179576392
 10
615.0604844794
 20
-86.8149847823
 10
612.3840015477
 20
-83.4420470004
 10
609.6134109652
 20
-80.2124557382
 10
606.7596469871
 20
-77.1389567169
 10
603.8339721161
 20
-74.2336796329
 10
600.8479326543
 20
-71.5080902877
 10
597.8133131352
 20
-68.9729453371
 10
594.7420898157
 20
-66.6382498401
 10
591.6463834111
 20
-64.5132177731
 10
588.5384112604
 20
-62.606235667
 10
585.4304391097
 20
-60.9248295089
 10
582.3347327051
 20
-59.4756350407
 10
579.2635093856
 20
-58.2643715709
 10
576.2288898665
 20
-57.295819403
 10
573.2428504047
 20
-56.57380097
 10
570.3171755337
 20
-56.1011657488
 10
567.4634115556
 20
-55.8797790146
 10
564.6928209731
 20
-55.9105144798
 10
562.0163380414
 20
-56.1932508456
 10
559.444525616
 20
-56.7268722805
 10
556.9875334654
 20
-57.5092728247
 10
554.6550582153
 20
-58.5373647007
 10
552.4563050799
 20
-59.8070904994
 10
550.3999515331
 20
-61.3134391933
 10
548.4941130632
 20
-63.0504659122
 10
546.7463111437
 20
-65.0113154052
 10
545.1634435503
 20
-67.1882490953
 10
543.7517571384
 20
-69.5726756197
 10
542.5168231892
 20
-72.1551847362
 10
541.4635154229
 20
-74.9255844612
 10
540.595990764
 20
-77.8729412927
 10
539.917672936
 20
-80.9856233597
 10
539.4312389494
 20
-84.2513463282
 10
539.138608537
 20
-87.6572218817
 10
539.0409365773
 20
-91.1898085852
  0
LWPOLYLINE
  5
E5
330
1F
100
AcDbEntity
  8
0
  6
Continuous
 62
     7
370
    25
100
AcDbPolyline
 90
       92
 70
   128
 43
0.0
 10
548.0211926984
 20
-96.3740000953
 10
548.1177341974
 20
-93.2017892421
 10
548.40689863
 20
-90.1561598604
 10
548.8873079961
 20
-87.251625761
 10
549.5566729263
 20
-84.5020283718
 10
550.4118035918
 20
-81.9204707764
 10
551.4486249056
 20
-79.5192552724
 10
552.662195942
 20
-77.3098247451
 10
554.0467334823
 20
-75.3027081373
 10
555.5956395747
 20
-73.5074702736
 10
557.3015329762
 20
-71.9326662799
 10
559.1562843279
 20
-70.5858008145
 10
561.151054895
 20
-69.4732923046
 10
563.2763386873
 20
-68.6004423599
 10
565.5220077597
 20
-67.971410508
 10
567.8773604764
 20
-67.589194372
 10
570.3311725091
 20
-67.4556153859
 10
572.871750326
 20
-67.5713101144
 10
575.4869869168
 20
-67.9357272194
 10
578.1644194881
 20
-68.5471300875
 10
580.8912888546
 20
-69.4026051056
 10
583.6546002418
 20
-70.4980755455
 10
586.4411852125
 20
-71.8283209919
 10
589.2377644205
 20
-73.3870022194
 10
592.0310108922
 20
-75.166691402
 10
594.8076135361
 20
-77.1589075104
 10
597.5543405761
 20
-79.3541567276
 10
600.2581026072
 20
-81.7419776913
 10
602.9060149719
 20
-84.3109913472
 10
605.4854591619
 20
-87.0489551754
 10
607.984142951
 20
-89.9428215314
 10
610.3901589731
 20
-92.978799824
 10
612.6920414661
 20
-96.1424222341
 10
614.8788209116
 20
-99.4186126604
 10
616.9400763098
 20
-102.7917585633
 10
618.8659848401
 20
-106.2457853666
 10
620.6473686711
 20
-109.7642330596
 10
622.2757386977
 20
-113.3303346368
 10
623.7433349951
 20
-116.927096
 10
625.0431637988
 20
-120.5373769436
 10
626.1690308324
 20
-124.1439728346
 10
627.1155708268
 20
-127.7296966012
 10
627.878273088
 20
-131.2774606368
 10
628.4535029923
 20
-134.77035823
 10
628.8385193073
 20
-138.1917441332
 10
629.0314872549
 20
-141.5253138845
 10
629.0314872549
 20
-144.7551815058
 10
628.8385193073
 20
-147.8659552072
 10
628.4535029923
 20
-150.8428107352
 10
627.878273088
 20
-153.6715620177
 10
627.1155708268
 20
-156.3387287665
 10
626.1690308324
 20
-158.8316007176
 10
625.0431637988
 20
-161.1382982007
 10
623.7433349951
 20
-163.2478287519
 10
622.2757386977
 20
-165.1501394975
 10
620.6473686711
 20
-166.8361650605
 10
618.8659848401
 20
-168.2978707612
 10
616.9400763098
 20
-169.5282909063
 10
614.8788209116
 20
-170.5215619836
 10
612.6920414661
 20
-171.2729506039
 10
610.3901589731
 20
-171.7788760583
 10
607.984142951
 20
-172.0369273817
 10
605.4854591619
 20
-172.0458748419
 10
602.9060149719
 20
-171.8056758003
 10
600.2581026072
 20
-171.3174749146
 10
597.5543405761
 20
-170.5835986845
 10
594.8076135361
 20
-169.6075443643
 10
592.0310108922
 20
-168.3939632973
 10
589.2377644205
 20
-166.9486387501
 10
586.4411852125
 20
-165.2784583523
 10
583.6546002418
 20
-163.3913812741
 10
580.8912888546
 20
-161.2964002971
 10
578.1644194881
 20
-159.0034989597
 10
575.4869869168
 20
-156.523603981
 10
572.871750326
 20
-153.8685331899
 10
570.3311725091
 20
-151.0509392079
 10
567.8773604764
 20
-148.0842491533
 10
565.5220077597
 20
-144.9826006554
 10
563.2763386873
 20
-141.7607744816
 10
561.151054895
 20
-138.4341241009
 10
559.1562843279
 20
-135.0185025174
 10
557.3015329762
 20
-131.5301867233
 10
555.5956395747
 20
-127.985800132
 10
554.0467334823
 20
-124.4022333597
 10
552.662195942
 20
-120.796563734
 10
551.4486249056
 20
-117.1859739126
 10
550.4118035918
 20
-113.5876700004
 10
549.5566729263
 20
-110.0187995541
 10
548.8873079961
 20
-106.4963698667
 10
548.40689863
 20
-103.0371669198
 10
548.1177341974
 20
-99.6576753906
 10
548.0211926984
 20
-96.3740000953
  0
LWPOLYLINE
  5
E6
330
1F
100
AcDbEntity
  8
0
  6
Continuous
 62
     7
370
    25
100
AcDbPolyline
 90
      101
 70
   128
 43
0.0
 10
401.155114246
 20
-330.0150578057
 10
404.3607583564
 20
-328.2772484957
 10
407.7490951733
 20
-326.6590671693
 10
411.3067524794
 20
-325.1669000491
 10
415.0196898265
 20
-323.8066360369
 10
418.8732539473
 20
-322.5836434733
 10
422.8522365846
 20
-321.5027489513
 10
426.9409345119
 20
-320.5682182676
 10
431.1232115063
 20
-319.783739588
 10
435.3825620313
 20
-319.1524088915
 10
439.7021763762
 20
-318.6767177518
 10
444.0650069967
 20
-318.3585435045
 10
448.4538357936
 20
-318.1991418381
 10
452.8513420645
 20
-318.1991418381
 10
457.2401708613
 20
-318.3585435045
 10
461.6030014818
 20
-318.6767177518
 10
465.9226158268
 20
-319.1524088915
 10
470.1819663518
 20
-319.783739588
 10
474.3642433462
 20
-320.5682182676
 10
478.4529412735
 20
-321.5027489513
 10
482.4319239108
 20
-322.5836434733
 10
486.2854880316
 20
-323.8066360369
 10
489.9984253787
 20
-325.1669000491
 10
493.5560826847
 20
-326.6590671693
 10
496.9444195017
 20
-328.2772484957
 10
500.1500636121
 20
-330.0150578057
 10
503.1603638032
 20
-331.8656367599
 10
505.9634397953
 20
-333.8216819687
 10
508.5482291282
 20
-335.8754738153
 10
510.9045308193
 20
-338.0189069216
 10
513.0230456222
 20
-340.2435221362
 10
514.8954127269
 20
-342.5405399194
 10
516.5142427558
 20
-344.9008949912
 10
517.8731469264
 20
-347.3152721086
 10
518.9667622647
 20
-349.7741428282
 10
519.7907727707
 20
-352.2678031104
 10
520.3419264512
 20
-354.7864116176
 10
520.6180481546
 20
-357.3200285524
 10
520.6180481546
 20
-359.8586548865
 10
520.3419264512
 20
-362.3922718213
 10
519.7907727707
 20
-364.9108803285
 10
518.9667622647
 20
-367.4045406107
 10
517.8731469264
 20
-369.8634113303
 10
516.5142427558
 20
-372.2777884477
 10
514.8954127269
 20
-374.6381435195
 10
513.0230456222
 20
-376.9351613027
 10
510.9045308193
 20
-379.1597765173
 10
508.5482291282
 20
-381.3032096236
 10
505.9634397953
 20
-383.3570014702
 10
503.1603638032
 20
-385.313046679
 10
500.1500636121
 20
-387.1636256332
 10
496.9444195017
 20
-388.9014349432
 10
493.5560826847
 20
-390.5196162696
 10
489.9984253787
 20
-392.0117833898
 10
486.2854880316
 20
-393.372047402
 10
482.4319239108
 20
-394.5950399656
 10
478.4529412735
 20
-395.6759344876
 10
474.3642433462
 20
-396.6104651713
 10
470.1819663518
 20
-397.3949438509
 10
465.9226158268
 20
-398.0262745474
 10
461.6030014818
 20
-398.5019656872
 10
457.2401708613
 20
-398.8201399344
 10
452.8513420645
 20
-398.9795416008
 10
448.4538357936
 20
-398.9795416008
 10
444.0650069967
 20
-398.8201399344
 10
439.7021763762
 20
-398.5019656872
 10
435.3825620313
 20
-398.0262745474
 10
431.1232115063
 20
-397.3949438509
 10
426.9409345119
 20
-396.6104651713
 10
422.8522365846
 20
-395.6759344876
 10
418.8732539473
 20
-394.5950399656
 10
415.0196898265
 20
-393.372047402
 10
411.3067524794
 20
-392.0117833898
 10
407.7490951733
 20
-390.5196162696
 10
404.3607583564
 20
-388.9014349432
 10
401.155114246
 20
-387.1636256332
 10
398.1448140549
 20
-385.313046679
 10
395.3417380627
 20
-383.3570014702
 10
392.7569487298
 20
-381.3032096236
 10
390.4006470388
 20
-379.1597765173
 10
388.2821322358
 20
-376.9351613027
 10
386.4097651311
 20
-374.6381435195
 10
384.7909351022
 20
-372.2777884477
 10
383.4320309316
 20
-369.8634113303
 10
382.3384155933
 20
-367.4045406107
 10
381.5144050874
 20
-364.9108803285
 10
380.9632514068
 20
-362.3922718213
 10
380.6871297034
 20
-359.8586548865
 10
380.6871297034
 20
-357.3200285524
 10
380.9632514068
 20
-354.7864116176
 10
381.5144050874
 20
-352.2678031104
 10
382.3384155933
 20
-349.7741428282
 10
383.4320309316
 20
-347.3152721086
 10
384.7909351022
 20
-344.9008949912
 10
386.4097651312
 20
-342.5405399194
 10
388.2821322358
 20
-340.2435221362
 10
390.4006470388
 20
-338.0189069216
 10
392.7569487298
 20
-335.8754738153
 10
395.3417380627
 20
-333.8216819687
 10
398.1448140549
 20
-331.8656367599
 10
401.155114246
 20
-330.0150578057
  0
LWPOLYLINE
  5
E7
330
1F
100
AcDbEntity
  8
0
  6
Continuous
 62
     7
370
    25
100
AcDbPolyline
 90
       92
 70
   128
 43
0.0
 10
410.135370367
 20
-335.1992493157
 10
407.4365825893
 20
-336.8686907794
 10
404.9437387623
 20
-338.6416410364
 10
402.6687184219
 20
-340.5096511712
 10
400.6223630763
 20
-342.463819265
 10
398.8144245405
 20
-344.4948328168
 10
397.253518465
 20
-346.5930131221
 10
395.9470832781
 20
-348.7483613962
 10
394.9013447383
 20
-350.9506064232
 10
394.1212862661
 20
-353.1892535025
 10
393.6106251953
 20
-355.4536344614
 10
393.3717950584
 20
-357.7329584933
 10
393.4059339899
 20
-360.0163635813
 10
393.7128793021
 20
-362.2929682603
 10
394.291168261
 20
-364.5519234721
 10
395.1380450561
 20
-366.7824642666
 10
396.249473934
 20
-368.973961101
 10
397.6201584299
 20
-371.115970495
 10
399.2435666079
 20
-373.1982847982
 10
401.1119621889
 20
-375.2109808348
 10
403.2164414169
 20
-377.1444671915
 10
405.5469754901
 20
-378.9895299254
 10
408.0924583524
 20
-380.7373764723
 10
410.8407596186
 20
-382.3796775474
 10
413.7787823817
 20
-383.9086068383
 10
416.8925256253
 20
-385.3168783006
 10
420.1671509447
 20
-386.5977808794
 10
423.5870532591
 20
-387.7452104906
 10
427.1359351766
 20
-388.7536991096
 10
430.7968846586
 20
-389.6184408289
 10
434.5524556137
 20
-390.3353147603
 10
438.384751036
 20
-390.9009046732
 10
442.2755082926
 20
-391.312515274
 10
446.2061861534
 20
-391.5681850507
 10
450.1580531483
 20
-391.6666956205
 10
454.1122768313
 20
-391.6075775356
 10
458.050013526
 20
-391.3911125206
 10
461.9524981237
 20
-391.0183321299
 10
465.8011335081
 20
-390.4910128319
 10
469.5775791791
 20
-389.811667543
 10
473.263838653
 20
-388.983533653
 10
476.842345225
 20
-388.010557597
 10
480.2960456814
 20
-386.897376049
 10
483.6084815669
 20
-385.649293826
 10
486.7638676159
 20
-384.2722586082
 10
489.7471669769
 20
-382.7728325955
 10
492.54416287
 20
-381.1581612357
 10
495.141526336
 20
-379.4359391731
 10
497.5268797551
 20
-377.6143735801
 10
499.6888558319
 20
-375.7021450463
 10
501.617151766
 20
-373.7083662116
 10
503.302578349
 20
-371.64253834
 10
504.7371037557
 20
-369.5145060421
 10
505.9138918193
 20
-367.334410361
 10
506.8273346088
 20
-365.1126404452
 10
507.4730791533
 20
-362.8597840404
 10
507.848048186
 20
-360.5865770331
 10
507.9504548087
 20
-358.30385229
 10
507.7798110071
 20
-356.0224880341
 10
507.3369299767
 20
-353.7533560049
 10
506.6239222474
 20
-351.50726965
 10
505.6441856255
 20
-349.2949325936
 10
504.4023890024
 20
-347.1268876293
 10
502.9044501044
 20
-345.0134664788
 10
501.1575072925
 20
-342.9647405562
 10
499.1698855448
 20
-340.9904729736
 10
496.9510567841
 20
-339.100072015
 10
494.5115947398
 20
-337.3025463019
 10
491.8631245596
 20
-335.6064618629
 10
489.0182674099
 20
-334.0199013128
 10
485.9905803306
 20
-332.5504253351
 10
482.7944916295
 20
-331.205036652
 10
479.4452321247
 20
-329.9901466533
 10
475.9587625629
 20
-328.9115448431
 10
472.3516975594
 20
-327.9743712503
 10
468.6412264215
 20
-327.1830919336
 10
464.845031234
 20
-326.5414776996
 10
460.9812025958
 20
-326.0525861321
 10
457.0681534097
 20
-325.7187470221
 10
453.1245311373
 20
-325.5415512651
 10
449.1691289346
 20
-325.5218432795
 10
445.2207960943
 20
-325.6597169827
 10
441.2983482205
 20
-325.954515344
 10
437.4204775635
 20
-326.4048335147
 10
433.6056639431
 20
-327.0085255237
 10
429.8720866834
 20
-327.7627145038
 10
426.2375379802
 20
-328.6638064009
 10
422.7193381134
 20
-329.7075071018
 10
419.3342529075
 20
-330.8888428974
 10
416.098413835
 20
-332.2021841846
 10
413.0272411427
 20
-333.6412722941
 10
410.135370367
 20
-335.1992493157
  0
LWPOLYLINE
  5
E8
330
1F
100
AcDbEntity
  8
0
  6
Continuous
 62
     1
370
    25
100
AcDbPolyline
 90
       14
 70
   128
 43
0.0
 10
500.1500636121
 20
-227.9474563199
 10
503.2580357628
 20
-229.6288624781
 10
506.3537421674
 20
-231.0780569463
 10
509.4249654869
 20
-232.2893204161
 10
512.459585006
 20
-233.257872584
 10
515.4456244678
 20
-233.9798910169
 10
518.3712993388
 20
-234.4525262382
 10
521.2250633169
 20
-234.6739129723
 10
523.9956538994
 20
-234.6431775071
 10
526.6721368311
 20
-234.3604411414
 10
529.2439492565
 20
-233.8268197064
 10
531.700941407
 20
-233.0444191622
 10
534.0334166572
 20
-232.0163272863
 10
535.1472192543
 20
-231.4130198546
  0
LWPOLYLINE
  5
E9
330
1F
100
AcDbEntity
  8
0
  6
Continuous
 62
     1
370
    25
100
AcDbPolyline
 90
       39
 70
   128
 43
0.0
 10
465.1529079698
 20
-110.1661791213
 10
464.0679574316
 20
-110.8325974883
 10
462.0116038848
 20
-112.3389461822
 10
460.1057654148
 20
-114.0759729011
 10
458.3579634954
 20
-116.0368223941
 10
456.775095902
 20
-118.2137560842
 10
455.3634094901
 20
-120.5981826086
 10
454.1284755409
 20
-123.1806917251
 10
453.0751677746
 20
-125.9510914501
 10
452.2076431157
 20
-128.8984482816
 10
451.5293252877
 20
-132.0111303486
 10
451.0428913011
 20
-135.2768533172
 10
450.7502608887
 20
-138.6827288706
 10
450.652588929
 20
-142.2153155741
 10
450.7502608887
 20
-145.8606719219
 10
451.0428913011
 20
-149.6044113579
 10
451.5293252877
 20
-153.4317590528
 10
452.2076431157
 20
-157.3276102139
 10
453.0751677746
 20
-161.2765896964
 10
454.1284755409
 20
-165.2631126825
 10
455.3634094901
 20
-169.2714461872
 10
456.775095902
 20
-173.2857711494
 10
458.3579634954
 20
-177.2902448625
 10
460.1057654148
 20
-181.2690634981
 10
462.0116038848
 20
-185.2065244769
 10
464.0679574316
 20
-189.0870884392
 10
466.266710567
 20
-192.8954405719
 10
468.5991858171
 20
-196.6165510491
 10
471.0561779677
 20
-200.2357343477
 10
473.6279903931
 20
-203.7387072047
 10
476.3044733248
 20
-207.1116449865
 10
479.0750639073
 20
-210.3412362487
 10
481.9288278854
 20
-213.4147352701
 10
484.8545027564
 20
-216.320012354
 10
487.8405422182
 20
-219.0456016993
 10
490.8751617373
 20
-221.5807466499
 10
493.9463850568
 20
-223.9154421469
 10
497.0420914613
 20
-226.0404742138
 10
500.1500636121
 20
-227.9474563199
  0
LWPOLYLINE
  5
EA
330
1F
100
AcDbEntity
  8
0
  6
Continuous
 62
     1
370
    25
100
AcDbPolyline
 90
       14
 70
   128
 43
0.0
 10
500.1500636121
 20
-227.9474563199
 10
503.1603638032
 20
-229.7980352742
 10
505.9634397953
 20
-231.754080483
 10
508.5482291282
 20
-233.8078723296
 10
510.9045308193
 20
-235.9513054359
 10
513.0230456222
 20
-238.1759206505
 10
514.8954127269
 20
-240.4729384336
 10
516.5142427558
 20
-242.8332935055
 10
517.8731469264
 20
-245.2476706229
 10
518.9667622647
 20
-247.7065413424
 10
519.7907727707
 20
-250.2002016247
 10
520.3419264512
 20
-252.7188101319
 10
520.6180481546
 20
-255.2524270667
 10
520.652588929
 20
-256.5217402337
  0
LWPOLYLINE
  5
EB
330
1F
100
AcDbEntity
  8
0
  6
Continuous
 62
     1
370
    25
100
AcDbPolyline
 90
       39
 70
   128
 43
0.0
 10
380.652588929
 20
-256.5217402337
 10
380.6871297034
 20
-255.2524270667
 10
380.9632514068
 20
-252.7188101319
 10
381.5144050874
 20
-250.2002016247
 10
382.3384155933
 20
-247.7065413424
 10
383.4320309316
 20
-245.2476706229
 10
384.7909351022
 20
-242.8332935055
 10
386.4097651312
 20
-240.4729384336
 10
388.2821322358
 20
-238.1759206505
 10
390.4006470388
 20
-235.9513054359
 10
392.7569487298
 20
-233.8078723296
 10
395.3417380627
 20
-231.754080483
 10
398.1448140549
 20
-229.7980352742
 10
401.155114246
 20
-227.9474563199
 10
404.3607583564
 20
-226.2096470099
 10
407.7490951733
 20
-224.5914656836
 10
411.3067524794
 20
-223.0992985634
 10
415.0196898265
 20
-221.7390345512
 10
418.8732539473
 20
-220.5160419876
 10
422.8522365846
 20
-219.4351474655
 10
426.9409345119
 20
-218.5006167819
 10
431.1232115063
 20
-217.7161381023
 10
435.3825620313
 20
-217.0848074057
 10
439.7021763762
 20
-216.609116266
 10
444.0650069967
 20
-216.2909420188
 10
448.4538357936
 20
-216.1315403524
 10
452.8513420645
 20
-216.1315403524
 10
457.2401708613
 20
-216.2909420188
 10
461.6030014818
 20
-216.609116266
 10
465.9226158268
 20
-217.0848074057
 10
470.1819663518
 20
-217.7161381023
 10
474.3642433462
 20
-218.5006167819
 10
478.4529412735
 20
-219.4351474655
 10
482.4319239108
 20
-220.5160419876
 10
486.2854880316
 20
-221.7390345512
 10
489.9984253787
 20
-223.0992985634
 10
493.5560826847
 20
-224.5914656836
 10
496.9444195017
 20
-226.2096470099
 10
500.1500636121
 20
-227.9474563199
  0
ENDSEC
  0
SECTION
  2
OBJECTS
  0
DICTIONARY
  5
C
330
0
100
AcDbDictionary
281
     1
  3
ACAD_GROUP
350
D
  3
ACAD_LAYOUT
350
1A
  3
ACAD_MLINESTYLE
350
17
  3
ACAD_PLOTSETTINGS
350
19
  3
ACAD_PLOTSTYLENAME
350
E
  3
ACAD_SCALELIST
350
47
  3
DWGPROPS
350
EC
  0
DICTIONARY
  5
D
102
{ACAD_REACTORS
330
C
102
}
330
C
100
AcDbDictionary
281
     1
  0
DICTIONARY
  5
1A
102
{ACAD_REACTORS
330
C
102
}
330
C
100
AcDbDictionary
281
     1
  3
Layout1
350
1E
  3
Layout2
350
26
  3
Model
350
22
  0
DICTIONARY
  5
17
102
{ACAD_REACTORS
330
C
102
}
330
C
100
AcDbDictionary
281
     1
  3
Standard
350
18
  0
DICTIONARY
  5
19
102
{ACAD_REACTORS
330
C
102
}
330
C
100
AcDbDictionary
281
     1
  0
ACDBDICTIONARYWDFLT
  5
E
102
{ACAD_REACTORS
330
C
102
}
330
C
100
AcDbDictionary
281
     1
  3
Normal
350
F
100
AcDbDictionaryWithDefault
340
F
  0
DICTIONARY
  5
47
102
{ACAD_REACTORS
330
C
102
}
330
C
100
AcDbDictionary
281
     1
  3
A0
350
48
  3
A1
350
49
  3
A2
350
4A
  3
A3
350
4B
  3
A4
350
4C
  3
A5
350
4D
  3
A6
350
4E
  3
A7
350
4F
  3
A8
350
50
  3
A9
350
51
  3
B0
350
52
  3
B1
350
53
  3
B2
350
54
  3
B3
350
55
  3
B4
350
56
  3
B5
350
57
  3
B6
350
58
  3
B7
350
59
  3
B8
350
5A
  3
B9
350
5B
  3
C0
350
5C
  3
C1
350
5D
  3
C2
350
5E
  3
C3
350
5F
  3
C4
350
60
  3
C5
350
61
  3
C6
350
62
  3
C7
350
63
  3
C8
350
64
  3
C9
350
65
  3
D0
350
66
  3
D1
350
67
  3
D2
350
68
  0
XRECORD
  5
EC
102
{ACAD_REACTORS
330
C
102
}
330
C
100
AcDbXrecord
280
     1
  1
DWGPROPS COOKIE
  2

  3

  4

  6

  7

  8
b.kav
  9

300
=
301
=
302
=
303
=
304
=
305
=
306
=
307
=
308
=
309
=
 40
0.0
 41
2459935.574369294
 42
2459935.574369479
  1

 90
        0
  0
LAYOUT
  5
1E
102
{ACAD_REACTORS
330
1A
102
}
330
1A
100
AcDbPlotSettings
  1

  2
none_device
  4

  6

 40
0.0
 41
0.0
 42
0.0
 43
0.0
 44
0.0
 45
0.0
 46
0.0
 47
0.0
 48
0.0
 49
0.0
140
0.0
141
0.0
142
1.0
143
1.0
 70
   688
 72
     1
 73
     0
 74
     5
  7

 75
    16
147
1.0
148
0.0
149
0.0
100
AcDbLayout
  1
Layout1
 70
     1
 71
     1
 10
0.0
 20
0.0
 11
420.0
 21
297.0
 12
0.0
 22
0.0
 32
0.0
 14
1.0000000000E+20
 24
1.0000000000E+20
 34
1.0000000000E+20
 15
-1.0000000000E+20
 25
-1.0000000000E+20
 35
-1.0000000000E+20
146
0.0
 13
0.0
 23
0.0
 33
0.0
 16
1.0
 26
0.0
 36
0.0
 17
0.0
 27
1.0
 37
0.0
 76
     0
330
1B
  0
LAYOUT
  5
26
102
{ACAD_REACTORS
330
1A
102
}
330
1A
100
AcDbPlotSettings
  1

  2
none_device
  4

  6

 40
0.0
 41
0.0
 42
0.0
 43
0.0
 44
0.0
 45
0.0
 46
0.0
 47
0.0
 48
0.0
 49
0.0
140
0.0
141
0.0
142
1.0
143
1.0
 70
   688
 72
     1
 73
     0
 74
     5
  7

 75
    16
147
1.0
148
0.0
149
0.0
100
AcDbLayout
  1
Layout2
 70
     1
 71
     2
 10
0.0
 20
0.0
 11
0.0
 21
0.0
 12
0.0
 22
0.0
 32
0.0
 14
0.0
 24
0.0
 34
0.0
 15
0.0
 25
0.0
 35
0.0
146
0.0
 13
0.0
 23
0.0
 33
0.0
 16
1.0
 26
0.0
 36
0.0
 17
0.0
 27
1.0
 37
0.0
 76
     0
330
23
  0
LAYOUT
  5
22
102
{ACAD_REACTORS
330
1A
102
}
330
1A
100
AcDbPlotSettings
  1

  2
none_device
  4
Letter_(8.50_x_11.00_Inches)
  6

 40
6.35
 41
6.35
 42
6.35000508
 43
6.35000508
 44
215.9
 45
279.4
 46
0.0
 47
0.0
 48
0.0
 49
0.0
140
0.0
141
0.0
142
1.0
143
1.0
 70
  1712
 72
     1
 73
     0
 74
     0
  7

 75
     0
147
1.0
148
0.0
149
0.0
100
AcDbLayout
  1
Model
 70
     1
 71
     0
 10
0.0
 20
0.0
 11
279.4
 21
215.9
 12
0.0
 22
0.0
 32
0.0
 14
0.0
 24
0.0
 34
0.0
 15
279.4
 25
215.9
 35
0.0
146
0.0
 13
0.0
 23
0.0
 33
0.0
 16
1.0
 26
0.0
 36
0.0
 17
0.0
 27
1.0
 37
0.0
 76
     0
330
1F
331
29
  0
MLINESTYLE
  5
18
102
{ACAD_REACTORS
330
17
102
}
330
17
100
AcDbMlineStyle
  2
Standard
 70
     0
  3

 62
   256
 51
90.0
 52
90.0
 71
     2
 49
0.5
 62
   256
  6
BYLAYER
 49
-0.5
 62
   256
  6
BYLAYER
  0
ACDBPLACEHOLDER
  5
F
102
{ACAD_REACTORS
330
E
102
}
330
E
  0
SCALE
  5
48
102
{ACAD_REACTORS
330
47
102
}
330
47
100
AcDbScale
 70
     0
300
1:1
140
1.0
141
1.0
290
     1
  0
SCALE
  5
49
102
{ACAD_REACTORS
330
47
102
}
330
47
100
AcDbScale
 70
     0
300
1:2
140
1.0
141
2.0
290
     0
  0
SCALE
  5
4A
102
{ACAD_REACTORS
330
47
102
}
330
47
100
AcDbScale
 70
     0
300
1:4
140
1.0
141
4.0
290
     0
  0
SCALE
  5
4B
102
{ACAD_REACTORS
330
47
102
}
330
47
100
AcDbScale
 70
     0
300
1:5
140
1.0
141
5.0
290
     0
  0
SCALE
  5
4C
102
{ACAD_REACTORS
330
47
102
}
330
47
100
AcDbScale
 70
     0
300
1:8
140
1.0
141
8.0
290
     0
  0
SCALE
  5
4D
102
{ACAD_REACTORS
330
47
102
}
330
47
100
AcDbScale
 70
     0
300
1:10
140
1.0
141
10.0
290
     0
  0
SCALE
  5
4E
102
{ACAD_REACTORS
330
47
102
}
330
47
100
AcDbScale
 70
     0
300
1:16
140
1.0
141
16.0
290
     0
  0
SCALE
  5
4F
102
{ACAD_REACTORS
330
47
102
}
330
47
100
AcDbScale
 70
     0
300
1:20
140
1.0
141
20.0
290
     0
  0
SCALE
  5
50
102
{ACAD_REACTORS
330
47
102
}
330
47
100
AcDbScale
 70
     0
300
1:30
140
1.0
141
30.0
290
     0
  0
SCALE
  5
51
102
{ACAD_REACTORS
330
47
102
}
330
47
100
AcDbScale
 70
     0
300
1:40
140
1.0
141
40.0
290
     0
  0
SCALE
  5
52
102
{ACAD_REACTORS
330
47
102
}
330
47
100
AcDbScale
 70
     0
300
1:50
140
1.0
141
50.0
290
     0
  0
SCALE
  5
53
102
{ACAD_REACTORS
330
47
102
}
330
47
100
AcDbScale
 70
     0
300
1:100
140
1.0
141
100.0
290
     0
  0
SCALE
  5
54
102
{ACAD_REACTORS
330
47
102
}
330
47
100
AcDbScale
 70
     0
300
2:1
140
2.0
141
1.0
290
     0
  0
SCALE
  5
55
102
{ACAD_REACTORS
330
47
102
}
330
47
100
AcDbScale
 70
     0
300
4:1
140
4.0
141
1.0
290
     0
  0
SCALE
  5
56
102
{ACAD_REACTORS
330
47
102
}
330
47
100
AcDbScale
 70
     0
300
8:1
140
8.0
141
1.0
290
     0
  0
SCALE
  5
57
102
{ACAD_REACTORS
330
47
102
}
330
47
100
AcDbScale
 70
     0
300
10:1
140
10.0
141
1.0
290
     0
  0
SCALE
  5
58
102
{ACAD_REACTORS
330
47
102
}
330
47
100
AcDbScale
 70
     0
300
100:1
140
100.0
141
1.0
290
     0
  0
SCALE
  5
59
102
{ACAD_REACTORS
330
47
102
}
330
47
100
AcDbScale
 70
     0
300
1/128" = 1'-0"
140
0.0078125
141
12.0
290
     0
  0
SCALE
  5
5A
102
{ACAD_REACTORS
330
47
102
}
330
47
100
AcDbScale
 70
     0
300
1/64" = 1'-0"
140
0.015625
141
12.0
290
     0
  0
SCALE
  5
5B
102
{ACAD_REACTORS
330
47
102
}
330
47
100
AcDbScale
 70
     0
300
1/32" = 1'-0"
140
0.03125
141
12.0
290
     0
  0
SCALE
  5
5C
102
{ACAD_REACTORS
330
47
102
}
330
47
100
AcDbScale
 70
     0
300
1/16" = 1'-0"
140
0.0625
141
12.0
290
     0
  0
SCALE
  5
5D
102
{ACAD_REACTORS
330
47
102
}
330
47
100
AcDbScale
 70
     0
300
3/32" = 1'-0"
140
0.09375
141
12.0
290
     0
  0
SCALE
  5
5E
102
{ACAD_REACTORS
330
47
102
}
330
47
100
AcDbScale
 70
     0
300
1/8" = 1'-0"
140
0.125
141
12.0
290
     0
  0
SCALE
  5
5F
102
{ACAD_REACTORS
330
47
102
}
330
47
100
AcDbScale
 70
     0
300
3/16" = 1'-0"
140
0.1875
141
12.0
290
     0
  0
SCALE
  5
60
102
{ACAD_REACTORS
330
47
102
}
330
47
100
AcDbScale
 70
     0
300
1/4" = 1'-0"
140
0.25
141
12.0
290
     0
  0
SCALE
  5
61
102
{ACAD_REACTORS
330
47
102
}
330
47
100
AcDbScale
 70
     0
300
3/8" = 1'-0"
140
0.375
141
12.0
290
     0
  0
SCALE
  5
62
102
{ACAD_REACTORS
330
47
102
}
330
47
100
AcDbScale
 70
     0
300
1/2" = 1'-0"
140
0.5
141
12.0
290
     0
  0
SCALE
  5
63
102
{ACAD_REACTORS
330
47
102
}
330
47
100
AcDbScale
 70
     0
300
3/4" = 1'-0"
140
0.75
141
12.0
290
     0
  0
SCALE
  5
64
102
{ACAD_REACTORS
330
47
102
}
330
47
100
AcDbScale
 70
     0
300
1" = 1'-0"
140
1.0
141
12.0
290
     0
  0
SCALE
  5
65
102
{ACAD_REACTORS
330
47
102
}
330
47
100
AcDbScale
 70
     0
300
1-1/2" = 1'-0"
140
1.5
141
12.0
290
     0
  0
SCALE
  5
66
102
{ACAD_REACTORS
330
47
102
}
330
47
100
AcDbScale
 70
     0
300
3" = 1'-0"
140
3.0
141
12.0
290
     0
  0
SCALE
  5
67
102
{ACAD_REACTORS
330
47
102
}
330
47
100
AcDbScale
 70
     0
300
6" = 1'-0"
140
6.0
141
12.0
290
     0
  0
SCALE
  5
68
102
{ACAD_REACTORS
330
47
102
}
330
47
100
AcDbScale
 70
     0
300
1'-0" = 1'-0"
140
12.0
141
12.0
290
     0
  0
ENDSEC
  0
EOF
